Αποστολέας Θέμα: Μια βραδιά στο λούκι solo  (Αναγνώστηκε 2980 φορές)

0 μέλη και 1 επισκέπτης διαβάζουν αυτό το θέμα.

Αποσυνδεδεμένος wizofcom

  • Επισκέπτης
  • **
  • Μηνύματα: 73
  • Φύλο: Άντρας
    • Προφίλ
Μια βραδιά στο λούκι solo
« στις: 30/09/05, 17:20 »
Μια βραδιά στο λούκι  solo

Παραθέτω το σόλο από το Mια βραδιά στο λούκι
θα παρακαλούσα τους συντονιστές αν συμφωνούν να το προσθέσουν στα τραγούδια

Επίσης όποιος θέλει για να μην βγάζει τα μάτια του εδώ ας μου πει να του το στείλω σε Guitar pro ή midi


   G                    C                    D
E||--3--2--3--0--------|--------0--3--2--0--|--2--3--5--2--3--5--|
B||--------------3--0--|--1--3--------------|--------------------|
G||--------------------|--------------------|--------------------|
D||--------------------|--------------------|--------------------|
A||--------------------|--------------------|--------------------|
E||--------------------|--------------------|--------------------|


G                    C                    D                                                           
--7--5--7--3--5--7--|--8--7--5--2--3--5--|--5--2--3--5--3--2--|
--------------------|--------------------|--------------------|
--------------------|--------------------|--------------------|
--------------------|--------------------|--------------------|
--------------------|--------------------|--------------------|
--------------------|--------------------|--------------------|


Em                  C                    Em                                                           
--3--2--3--2--0----|--0-----------0--2--|--3--2--3--2--0----|
-------------------|-----3--1--3--------|-------------------|
-------------------|--------------------|-------------------|
-------------------|--------------------|-------------------|
-------------------|--------------------|-------------------|
-------------------|--------------------|-------------------|


C                    Em                  C                               
--0-----------0--2--|--3--2--3--2--0----|--0----------------|
-----3--1--3--------|-------------------|-----3--1--0-------|
--------------------|-------------------|--------------2----|
--------------------|-------------------|-------------------|
--------------------|-------------------|-------------------|
--------------------|-------------------|-------------------|


D                    G                                       
--0-----------------|----------------|--------||
-----3--1--0-----0--|----------------|--------||
--------------2-----|--0----0--------|--------||
--------------------|----------------|--------||
--------------------|----------------|--------||
--------------------|----------------|--------||
« Τελευταία τροποποίηση: 30/09/05, 17:33 από wizofcom »

Αποσυνδεδεμένος gigantas

  • Θαμώνας
  • ***
  • Μηνύματα: 125
  • Φύλο: Άντρας
    • Προφίλ
Απ: Μια βραδιά στο λούκι solo
« Απάντηση #1 στις: 30/09/05, 17:32 »
Aμα μπορεις να στειλεις σε gp4
Thanks  ;)
« Τελευταία τροποποίηση: 30/09/05, 18:18 από gigantas »

Αποσυνδεδεμένος wizofcom

  • Επισκέπτης
  • **
  • Μηνύματα: 73
  • Φύλο: Άντρας
    • Προφίλ
Απ: Μια βραδιά στο λούκι solo
« Απάντηση #2 στις: 30/09/05, 17:38 »

Αποσυνδεδεμένος gigantas

  • Θαμώνας
  • ***
  • Μηνύματα: 125
  • Φύλο: Άντρας
    • Προφίλ
Απ: Μια βραδιά στο λούκι solo
« Απάντηση #3 στις: 30/09/05, 18:17 »
Ευχαριστω  8)

Αποσυνδεδεμένος Χάρης(DJ Ha)

  • Παλιός
  • ****
  • Μηνύματα: 439
  • Φύλο: Άντρας
    • Προφίλ
Απ: Μια βραδιά στο λούκι solo
« Απάντηση #4 στις: 30/09/05, 18:41 »
Ωραιος wizofcom!

Και πανω που ημουν ετοιμος να παραθεσω ποια ακκορντα παιζονται πανω απ'τη μελωδια,
 με προλαβες και εκανες παράθεση!! Χε χε ;D ;D

Μου ακουγεται σωστη η μελωδια.

Κιθαρωδε, παρακαλω τοποθετησε την  παραθεση - μελωδια του φιλου μας .Την θεωρω κι εγω σωστή.
http://portal.kithara.gr/modules.php?name=kiSongdb&file=index&func=ss&id=MTExOTA5NzE0

...Ταράχτηκα και σκέφτηκα, Θεέ μου εμένανε κοιτάει
Όμως εκείνη κοίταγε να βρει τον σερβιτόρο

Μελωδια 2x

Βοήθεια χριστιανοί, κοντεύω να φλιπάρω
εγώ για κείνη χάνομαι και κείνη ούτε με ξέρει...


Προσοχή ομως...
Η ΜΕΛΩΔΙΑ ΓΙΑ ΤΟ ΠΑΡΑΚΑΤΩ ΤΡΑΓΟΥΔΙ ΕΙΝΑΙ ΑΠΟ ΤΗΝ ΕΚΤΕΛΕΣΗ ΠΟΥ ΥΠΑΡΧΕΙ ΣΤΟΝ ΔΙΣΚΟ "ΠΑΡΑΛΛΗΛΗ ΔΙΣΚΟΓΡΑΦΙΑ"


Υ.Γ.
Εκκρεμει μια επισημανση του wizofcom για το τραγουδι "Με το ιδιο μακο" αλλα με βρισκει λιγο αντιθετο σε μικρα μικρα σημεια. Θα επανελθω στο αντιστοιχο θεμα , μολις βρω λιγο χρονο. Τα ξαναλεμε λοιπον αργοτερα. :D
« Τελευταία τροποποίηση: 01/10/05, 02:16 από Χάρης(DJ Ha) »
http://www.myspace.com/operationmix
MUSIC IS MY WIFE! (Harris Copyright 2001)

Αποσυνδεδεμένος wizofcom

  • Επισκέπτης
  • **
  • Μηνύματα: 73
  • Φύλο: Άντρας
    • Προφίλ
Απ: Μια βραδιά στο λούκι solo
« Απάντηση #5 στις: 30/09/05, 19:17 »
Thnx Χάρη!

Όσο για το <<με ίδιο μακό>> οπότε μπορείς γράψε τις παρατηρήσεις σου.

Cu...

 

Σχετικά θέματα

  Τίτλος / Ξεκίνησε από Απαντήσεις Τελευταίο μήνυμα
84 Απαντήσεις
32085 Εμφανίσεις
Τελευταίο μήνυμα 13/06/10, 17:04
από ΡιχάρδοςΜαυροπερισσότερος
6 Απαντήσεις
1509 Εμφανίσεις
Τελευταίο μήνυμα 16/03/06, 15:17
από eleos* (Βάλια πια....)
19 Απαντήσεις
4982 Εμφανίσεις
Τελευταίο μήνυμα 05/10/06, 21:39
από Spell@lchemist!
14 Απαντήσεις
3618 Εμφανίσεις
Τελευταίο μήνυμα 22/07/08, 22:00
από Αδάμ_Α
4 Απαντήσεις
2695 Εμφανίσεις
Τελευταίο μήνυμα 23/10/08, 12:22
από dandy
3 Απαντήσεις
1285 Εμφανίσεις
Τελευταίο μήνυμα 10/03/09, 14:02
από Μιχάλης13
7 Απαντήσεις
1886 Εμφανίσεις
Τελευταίο μήνυμα 28/03/09, 14:05
από Aganippi
4 Απαντήσεις
1448 Εμφανίσεις
Τελευταίο μήνυμα 02/12/09, 00:30
από Black_BattleDragon
0 Απαντήσεις
1284 Εμφανίσεις
Τελευταίο μήνυμα 28/03/10, 00:12
από GD
0 Απαντήσεις
1168 Εμφανίσεις
Τελευταίο μήνυμα 10/06/10, 22:25
από Θοδωρής