Αποστολέας Θέμα: ΤΑΜΠΛΑΤΟΥΡΕΣ  (Αναγνώστηκε 2386 φορές)

0 μέλη και 1 επισκέπτης διαβάζουν αυτό το θέμα.

Αποσυνδεδεμένος ΑΝΗΣΥΧΟ-ΠΝΕΥΜΑ

  • Επισκέπτης
  • **
  • Μηνύματα: 30
  • Φύλο: Γυναίκα
  • Ο.Κ. Ζ.Κ.Π. Ζ.Τ.Σ.
    • Προφίλ
ΤΑΜΠΛΑΤΟΥΡΕΣ
« στις: 18/09/09, 16:13 »
παιδια θελω λιγη βοηθεια... προσπαθω να καταλαβω πωσ διαβαζονται οι ταμπλατουρες, ειχα ρωτησει καποτε τν δασκαλο που μ μαθαινε κιθαρα αλλα δεν καταδεχτηκε να μου πει, επειδη δεν του αρεσουν. λεει και δεν αξιζει κ κατι τετοια.. τι να πω...

ευχαριστω προκαταβολικα :)
ΖΗΣΕ Κ ΠΑΛΕΨΕ

Αποσυνδεδεμένος Eddie~Maiden

  • Παλιός
  • ****
  • Μηνύματα: 383
  • Φύλο: Άντρας
  • blah blah blah
    • Προφίλ
Απ: ΤΑΜΠΛΑΤΟΥΡΕΣ
« Απάντηση #1 στις: 18/09/09, 17:44 »


   Ελπιζω να σε βοηθησει  ;D
Dave who? Murray? Mustaine? Gilmour?

Αποσυνδεδεμένος geo134

  • Συναλλαγές: (3)
  • Θαμώνας
  • ***
  • Μηνύματα: 189
  • Φύλο: Άντρας
    • Προφίλ
Απ: ΤΑΜΠΛΑΤΟΥΡΕΣ
« Απάντηση #2 στις: 20/09/09, 19:23 »
λοιπον το να διαβαζει κανεισ ταμπλατουρες ειναι ιδιαιτερα απλο
παρακατω εχουμε μια  ταμπλατουρα

1--------------------------------------------------  T
2--------------------------------------------------
3--------------------------------------------------  A
4--------------------------------------------------
5--------------------------------------------------  B
6--------------------------------------------------

η λογικη ειναι πολλη απλη 

η χορδη νουμερο 1 ειναι η high e και η χορδη νουμερο 6 ειναι η low e
καλα ως εδω????


λοιπον ας πουμε τωρα οτι εσυ καττεβαζεις ενα χ τραγουδι και δειχχνει αυτο

1--5-----6--------------------3----------6-------------  T
2----8------------------9---------=--3-----------8-----
3---------3---------6----1-----------4-----------------  A
4----9---------------------8------------------5--------
5------------------------------------------------------  B
6------------------------------------------------------
οι αριθμοι που απεικονειζονται δειχνουν ποιο ταστο πρεπει να πατησεις στην καθε χορδη.
δηλαδη το τραγουδι ξεκιναει πατωντας το 5ο ταστο στην high e χορδη.και κανεις το ιδιο καθε φορα ετσι ωστε να παιξεις το τραγουδι.ελπιζω να βοηθησα!! ;) ;)
just.......rocking!!!

 

Σχετικά θέματα

  Τίτλος / Ξεκίνησε από Απαντήσεις Τελευταίο μήνυμα
6 Απαντήσεις
7687 Εμφανίσεις
Τελευταίο μήνυμα 24/12/05, 02:26
από SpYrO TsErKe
17 Απαντήσεις
18237 Εμφανίσεις
Τελευταίο μήνυμα 13/09/05, 20:16
από VampireLestrat
4 Απαντήσεις
51847 Εμφανίσεις
Τελευταίο μήνυμα 14/12/12, 22:05
από oldnavy
16 Απαντήσεις
10144 Εμφανίσεις
Τελευταίο μήνυμα 20/07/06, 17:40
από tziambaz71
8 Απαντήσεις
12037 Εμφανίσεις
Τελευταίο μήνυμα 14/01/09, 12:55
από CHRISMES
2 Απαντήσεις
2195 Εμφανίσεις
Τελευταίο μήνυμα 28/07/08, 02:23
από mitsakos_69
11 Απαντήσεις
3243 Εμφανίσεις
Τελευταίο μήνυμα 04/06/09, 21:24
από Vaggelis...
0 Απαντήσεις
1501 Εμφανίσεις
Τελευταίο μήνυμα 05/02/11, 14:09
από Βραζίλης
2 Απαντήσεις
5629 Εμφανίσεις
Τελευταίο μήνυμα 30/01/14, 21:55
από giorgos03
2 Απαντήσεις
19715 Εμφανίσεις
Τελευταίο μήνυμα 04/08/15, 14:57
από guitarfreak4